Header image  
"We hold you in our hearts..."  
line decor
  HOME  ::   MAIN LODGE   ::  FLAG POLE ::
line decor
   
 
Main Lodge - Flagpole (Guitar Music)

Guitar Music by Camper Casey McNerthney

Casey's a big fan of the show and decided one day during spring break to tab the guitar part to it. 
Thanks, Casey!

 

Intro

Strum the G Chord (This is what Ug plays on the piano)
e|---------3--------
B|--------3--------
G|-----------------
D|-----------------
A|----2-----------
E|---------3------
  
We run, we jump, we swim and play;
We row and go on trips.
But the thing that lasts forever;
are our dear friendships.
e|---------------------------------------------------------------------------------------------------------
B|-----6-6-5---------------------------------------------------------------------------------------------
G|--5---------5-7-7-5---------5-7-7-7-7-5-------------------6-6-8-6-4-5-7-9-----------6-6-9-6-8
D|---------------------------------------------------------------------------------------------------------
A|---------------------------------------------------------------------------------------------------------
E|--------------------------------------------------(7-5-3)-----------------------------------------------
  
NOTE: The guys also sing the intro during the beginning part of it - so it can also be played like this ¯

e|---------------------------------------------------------------------------------------------------------
B|-----5-5-4---------------------------------------------------------------------------------------------
G|--4---------4-6-6-4---------4-6-6-6-6-4-------------------6-6-8-6-4-5-7-9-----------6-6-9-6-8
D|---------------------------------------------------------------------------------------------------------
A|---------------------------------------------------------------------------------------------------------
E|--------------------------------------------------(7-5-3)-----------------------------------------------

Chorus

Camp Anawanna,
we hold you in our hearts;
and when we think about you,
it makes me want to fart!
e|----------------------------------------------------------------------------------------------------------
B|-------------------------------------1-3-3-3-3-1------1-3-3-5-3-1-6-------------------------------
G|-------------------4-4-4-4-1-----------------------------------------------2-4-4-2-4-5-----0-------
D|---------------------------------------------------------------------------------------------------------
A|---------------------------------------------------------------------------------------------------------
E|---(3-5-7)----------------------------------------------------------------------------------------------
  

(Bridge)

(General Laughter)
(The following is spoken:)
- "It's I hope we never part."
- "Now get it right or pay the price!"
e|----------------------------------------------------------------------------------------------------------
B|---------------------------------------------------------------------------------------------------------
G|---------------------------------------------------------------------------------------------------------
D|------2----2-----2----2-----2----2--------------------------------------------------------------------
A|---3----------3-----------3----------3-----------------------------------------------------------------
E|---------3-----------3----------3-------3 (hold this note)-------------------------------------------
  

Verse

Now we will share a lifetime
of the fondest memories;
by the Lake of Anawanna,
set in the old pine trees.
e|---------------------------------------------------------------------------------------------------------
B|-----6-6-5-5--------------------------8-8-10-10-10-10-8-8-------8-7-7-----7-8-----------------
G|--5------------7-7-5-5-7-7-7-7-5-------------------------------------------9--------0--------------
D|---------------------------------------------------------------------------------------------------------
A|---------------------------------------------------------------------------------------------------------
E|---------------------------------------------------------------------------------------------------------
  

Chorus

Camp Anawanna,
we hold you in our hearts;
but when we think about you,
this thing it came apart!
e|----------------------------------------------------------------------------------------------------------
B|---------------------------1-3-3-3-3-1------1-3-3-5-3-1-6-----------------------------------------
G|---------4-4-4-4-1-----------------------------------------------2-4-4-2-4-5-----0-----------------
D|---------------------------------------------------------------------------------------------------------
A|---------------------------------------------------------------------------------------------------------
E|---------------------------------------------------------------------------------------------------------
  

For the ending part just mute all the strings and stum along with the chant


Think Ana-wanna-wanna! (hands point to temples)
Speak Ana-wanna-wanna! (hands point to mouth)
Live Ana-wanna-wanna! (hands over heart)
Ugh!!! (hands in the air)

Other Notes

This is what I think it is ….

Also, some people think it sounds better to start the chorus out by playing this:

e|---------------------------
B|---------------------------
G|---------5-5-5-5-2------
D|---------------------------
A|---------------------------
E|----------------------------

 

 
   
Site Designed / Updated by Joe Struss